ISO-10303-21;
HEADER;
FILE_DESCRIPTION (( 'STEP AP203' ),
    '1' );
FILE_NAME ('QM-CAQWP-20-650-1100-M.STEP',
    '2021-01-05T02:45:24',
    ( '' ),
    ( '' ),
    'SwSTEP 2.0',
    'SolidWorks 2020',
    '' );
FILE_SCHEMA (( 'CONFIG_CONTROL_DESIGN' ));
ENDSEC;

DATA;
#1 = CARTESIAN_POINT ( 'NONE',  ( 2.999999999999999556, 12.69999999999999929, 0.000000000000000000 ) ) ;
#2 = EDGE_CURVE ( 'NONE', #32, #24, #133, .T. ) ;
#3 = CYLINDRICAL_SURFACE ( 'NONE', #310, 10.00000000000000000 ) ;
#4 = CARTESIAN_POINT ( 'NONE',  ( 3.000000000000000000, 0.000000000000000000, 0.000000000000000000 ) ) ;
#5 = AXIS2_PLACEMENT_3D ( 'NONE', #1, #103, #129 ) ;
#6 = ORIENTED_EDGE ( 'NONE', *, *, #42, .F. ) ;
#7 = ORIENTED_EDGE ( 'NONE', *, *, #239, .F. ) ;
#8 = VERTEX_POINT ( 'NONE', #234 ) ;
#9 = CALENDAR_DATE ( 2021, 5, 1 ) ;
#10 = DIRECTION ( 'NONE',  ( -1.000000000000000000, -0.000000000000000000, -0.000000000000000000 ) ) ;
#11 = DATE_AND_TIME ( #305, #181 ) ;
#12 = EDGE_LOOP ( 'NONE', ( #187, #130, #211, #126 ) ) ;
#13 = EDGE_CURVE ( 'NONE', #182, #128, #321, .T. ) ;
#14 = DIRECTION ( 'NONE',  ( 1.000000000000000000, 0.000000000000000000, 0.000000000000000000 ) ) ;
#15 = DIRECTION ( 'NONE',  ( -1.000000000000000000, -0.000000000000000000, -0.000000000000000000 ) ) ;
#16 = EDGE_CURVE ( 'NONE', #322, #184, #143, .T. ) ;
#17 = FACE_OUTER_BOUND ( 'NONE', #84, .T. ) ;
#18 = AXIS2_PLACEMENT_3D ( 'NONE', #47, #276, #226 ) ;
#19 = PRODUCT_DEFINITION ( 'UNKNOWN', '', #196, #334 ) ;
#20 = CARTESIAN_POINT ( 'NONE',  ( 2.999999999999999112, 0.000000000000000000, 10.00000000000000000 ) ) ;
#21 = DIRECTION ( 'NONE',  ( -1.000000000000000000, -0.000000000000000000, -0.000000000000000000 ) ) ;
#22 = DIRECTION ( 'NONE',  ( -1.000000000000000000, -0.000000000000000000, -0.000000000000000000 ) ) ;
#23 = CC_DESIGN_PERSON_AND_ORGANIZATION_ASSIGNMENT ( #323, #115, ( #196 ) ) ;
#24 = VERTEX_POINT ( 'NONE', #300 ) ;
#25 = VECTOR ( 'NONE', #217, 1000.000000000000000 ) ;
#26 = FACE_OUTER_BOUND ( 'NONE', #12, .T. ) ;
#27 = DIRECTION ( 'NONE',  ( 0.000000000000000000, 0.000000000000000000, 1.000000000000000000 ) ) ;
#28 = ORIENTED_EDGE ( 'NONE', *, *, #282, .T. ) ;
#29 = CARTESIAN_POINT ( 'NONE',  ( -1.614212418857619014, 0.000000000000000000, 0.000000000000000000 ) ) ;
#30 = VERTEX_POINT ( 'NONE', #94 ) ;
#31 = PERSON_AND_ORGANIZATION ( #238, #286 ) ;
#32 = VERTEX_POINT ( 'NONE', #41 ) ;
#33 = APPROVAL_PERSON_ORGANIZATION ( #31, #51, #204 ) ;
#34 = CIRCLE ( 'NONE', #222, 10.00000000000000000 ) ;
#35 = AXIS2_PLACEMENT_3D ( 'NONE', #165, #37, #292 ) ;
#36 = EDGE_LOOP ( 'NONE', ( #6, #40 ) ) ;
#37 = DIRECTION ( 'NONE',  ( 0.000000000000000000, 0.000000000000000000, 1.000000000000000000 ) ) ;
#38 = CARTESIAN_POINT ( 'NONE',  ( 0.5000000000000013323, 0.000000000000000000, 10.00000000000000000 ) ) ;
#39 = ADVANCED_BREP_SHAPE_REPRESENTATION ( 'QM-CAQWP-20-650-1100-M', ( #122, #35 ), #227 ) ;
#40 = ORIENTED_EDGE ( 'NONE', *, *, #328, .F. ) ;
#41 = CARTESIAN_POINT ( 'NONE',  ( 3.000000000000000000, 0.000000000000000000, 12.69999999999999929 ) ) ;
#42 = EDGE_CURVE ( 'NONE', #32, #322, #95, .T. ) ;
#43 = CC_DESIGN_APPROVAL ( #114, ( #100 ) ) ;
#44 = DIRECTION ( 'NONE',  ( -1.000000000000000000, -0.000000000000000000, -0.000000000000000000 ) ) ;
#45 = APPROVAL_STATUS ( 'not_yet_approved' ) ;
#46 = DIRECTION ( 'NONE',  ( 0.000000000000000000, 0.000000000000000000, 1.000000000000000000 ) ) ;
#47 = CARTESIAN_POINT ( 'NONE',  ( -1.614212418857619014, 0.000000000000000000, 0.000000000000000000 ) ) ;
#48 = VECTOR ( 'NONE', #316, 1000.000000000000000 ) ;
#49 = CARTESIAN_POINT ( 'NONE',  ( -3.000000000000000000, 0.000000000000000000, 0.000000000000000000 ) ) ;
#50 = EDGE_CURVE ( 'NONE', #110, #128, #34, .T. ) ;
#51 = APPROVAL ( #180, 'UNSPECIFIED' ) ;
#52 = AXIS2_PLACEMENT_3D ( 'NONE', #67, #283, #172 ) ;
#53 = DIRECTION ( 'NONE',  ( -1.000000000000000000, -0.000000000000000000, -0.000000000000000000 ) ) ;
#54 = ORIENTED_EDGE ( 'NONE', *, *, #50, .F. ) ;
#55 = COORDINATED_UNIVERSAL_TIME_OFFSET ( 8, 0, .AHEAD. ) ;
#56 = CARTESIAN_POINT ( 'NONE',  ( -1.614212418857619014, 0.000000000000000000, 0.000000000000000000 ) ) ;
#57 = VERTEX_POINT ( 'NONE', #186 ) ;
#58 = ORIENTED_EDGE ( 'NONE', *, *, #16, .T. ) ;
#59 = APPROVAL_ROLE ( '' ) ;
#60 = DIRECTION ( 'NONE',  ( -1.000000000000000000, -0.000000000000000000, -0.000000000000000000 ) ) ;
#61 = ORIENTED_EDGE ( 'NONE', *, *, #73, .F. ) ;
#62 = CARTESIAN_POINT ( 'NONE',  ( 0.5000000000000013323, 1.224646799147353256E-15, -10.00000000000000000 ) ) ;
#63 = EDGE_LOOP ( 'NONE', ( #274, #291 ) ) ;
#64 = EDGE_LOOP ( 'NONE', ( #155, #28, #189, #138 ) ) ;
#65 = AXIS2_PLACEMENT_3D ( 'NONE', #119, #250, #249 ) ;
#66 = PLANE ( 'NONE',  #329 ) ;
#67 = CARTESIAN_POINT ( 'NONE',  ( -3.000000000000000000, 10.00000000000000000, 0.000000000000000000 ) ) ;
#68 = APPROVAL_DATE_TIME ( #11, #114 ) ;
#69 = CARTESIAN_POINT ( 'NONE',  ( -3.000000000000000000, 0.000000000000000000, 0.000000000000000000 ) ) ;
#70 = APPROVAL_PERSON_ORGANIZATION ( #85, #151, #59 ) ;
#71 = CARTESIAN_POINT ( 'NONE',  ( 0.5000000000000013323, 0.000000000000000000, 0.000000000000000000 ) ) ;
#72 = CC_DESIGN_DATE_AND_TIME_ASSIGNMENT ( #314, #277, ( #100 ) ) ;
#73 = EDGE_CURVE ( 'NONE', #263, #110, #218, .T. ) ;
#74 = LOCAL_TIME ( 10, 45, 24.00000000000000000, #55 ) ;
#75 = CIRCLE ( 'NONE', #65, 12.69999999999999929 ) ;
#76 = ADVANCED_FACE ( 'NONE', ( #248 ), #156, .F. ) ;
#77 = CYLINDRICAL_SURFACE ( 'NONE', #302, 12.69999999999999929 ) ;
#78 = ORIENTED_EDGE ( 'NONE', *, *, #83, .F. ) ;
#79 = APPLICATION_PROTOCOL_DEFINITION ( 'international standard', 'config_control_design', 1994, #273 ) ;
#80 = LOCAL_TIME ( 10, 45, 24.00000000000000000, #299 ) ;
#81 = PLANE ( 'NONE',  #5 ) ;
#82 = DATE_AND_TIME ( #318, #74 ) ;
#83 = EDGE_CURVE ( 'NONE', #158, #30, #205, .T. ) ;
#84 = EDGE_LOOP ( 'NONE', ( #215, #262 ) ) ;
#85 = PERSON_AND_ORGANIZATION ( #238, #286 ) ;
#86 = CARTESIAN_POINT ( 'NONE',  ( -1.614212418857619014, 1.555301434917138433E-15, -12.69999999999999929 ) ) ;
#87 = ORIENTED_EDGE ( 'NONE', *, *, #309, .F. ) ;
#88 = MECHANICAL_CONTEXT ( 'NONE', #255, 'mechanical' ) ;
#89 = DIRECTION ( 'NONE',  ( 0.000000000000000000, 0.000000000000000000, 1.000000000000000000 ) ) ;
#90 = LOCAL_TIME ( 10, 45, 24.00000000000000000, #183 ) ;
#91 = SECURITY_CLASSIFICATION_LEVEL ( 'unclassified' ) ;
#92 = CC_DESIGN_PERSON_AND_ORGANIZATION_ASSIGNMENT ( #293, #188, ( #100 ) ) ;
#93 = CARTESIAN_POINT ( 'NONE',  ( 0.5000000000000013323, 0.000000000000000000, 0.000000000000000000 ) ) ;
#94 = CARTESIAN_POINT ( 'NONE',  ( -0.5000000000000006661, 0.000000000000000000, 10.00000000000000000 ) ) ;
#95 = CIRCLE ( 'NONE', #285, 12.69999999999999929 ) ;
#96 = VECTOR ( 'NONE', #44, 1000.000000000000000 ) ;
#97 = FACE_BOUND ( 'NONE', #313, .T. ) ;
#98 = DIRECTION ( 'NONE',  ( 0.000000000000000000, 0.000000000000000000, 1.000000000000000000 ) ) ;
#99 = DIRECTION ( 'NONE',  ( 0.000000000000000000, 0.000000000000000000, 1.000000000000000000 ) ) ;
#100 = SECURITY_CLASSIFICATION ( '', '', #91 ) ;
#101 = FACE_OUTER_BOUND ( 'NONE', #136, .T. ) ;
#102 = CIRCLE ( 'NONE', #150, 10.00000000000000000 ) ;
#103 = DIRECTION ( 'NONE',  ( -1.000000000000000000, 0.000000000000000000, -0.000000000000000000 ) ) ;
#104 = DATE_TIME_ROLE ( 'creation_date' ) ;
#105 = FACE_OUTER_BOUND ( 'NONE', #36, .T. ) ;
#106 = PERSON_AND_ORGANIZATION_ROLE ( 'design_owner' ) ;
#107 = CIRCLE ( 'NONE', #265, 10.00000000000000000 ) ;
#108 = CARTESIAN_POINT ( 'NONE',  ( -0.5000000000000006661, 0.000000000000000000, 0.000000000000000000 ) ) ;
#109 = ORIENTED_EDGE ( 'NONE', *, *, #2, .F. ) ;
#110 = VERTEX_POINT ( 'NONE', #38 ) ;
#111 = EDGE_CURVE ( 'NONE', #263, #182, #146, .T. ) ;
#112 = ORIENTED_EDGE ( 'NONE', *, *, #83, .T. ) ;
#113 = EDGE_LOOP ( 'NONE', ( #261, #112, #317, #117 ) ) ;
#114 = APPROVAL ( #45, 'UNSPECIFIED' ) ;
#115 = PERSON_AND_ORGANIZATION_ROLE ( 'design_supplier' ) ;
#116 = AXIS2_PLACEMENT_3D ( 'NONE', #294, #160, #264 ) ;
#117 = ORIENTED_EDGE ( 'NONE', *, *, #296, .T. ) ;
#118 = DIRECTION ( 'NONE',  ( 0.000000000000000000, 0.000000000000000000, -1.000000000000000000 ) ) ;
#119 = CARTESIAN_POINT ( 'NONE',  ( -3.000000000000000000, 0.000000000000000000, 0.000000000000000000 ) ) ;
#120 = DIRECTION ( 'NONE',  ( -1.000000000000000000, -0.000000000000000000, -0.000000000000000000 ) ) ;
#121 = CYLINDRICAL_SURFACE ( 'NONE', #298, 12.69999999999999929 ) ;
#122 = MANIFOLD_SOLID_BREP ( 'Ðý×', #174 ) ;
#123 = CARTESIAN_POINT ( 'NONE',  ( -3.000000000000000000, 0.000000000000000000, 0.000000000000000000 ) ) ;
#124 = DIRECTION ( 'NONE',  ( 1.000000000000000000, 0.000000000000000000, 0.000000000000000000 ) ) ;
#125 = FACE_OUTER_BOUND ( 'NONE', #326, .T. ) ;
#126 = ORIENTED_EDGE ( 'NONE', *, *, #50, .T. ) ;
#127 = CYLINDRICAL_SURFACE ( 'NONE', #190, 10.00000000000000000 ) ;
#128 = VERTEX_POINT ( 'NONE', #62 ) ;
#129 = DIRECTION ( 'NONE',  ( -0.000000000000000000, 0.000000000000000000, 1.000000000000000000 ) ) ;
#130 = ORIENTED_EDGE ( 'NONE', *, *, #111, .F. ) ;
#131 = PERSON_AND_ORGANIZATION ( #238, #286 ) ;
#132 = CIRCLE ( 'NONE', #142, 12.69999999999999929 ) ;
#133 = LINE ( 'NONE', #192, #178 ) ;
#134 = ADVANCED_FACE ( 'NONE', ( #139 ), #121, .T. ) ;
#135 = AXIS2_PLACEMENT_3D ( 'NONE', #324, #297, #89 ) ;
#136 = EDGE_LOOP ( 'NONE', ( #87, #78 ) ) ;
#137 = PERSON_AND_ORGANIZATION_ROLE ( 'creator' ) ;
#138 = ORIENTED_EDGE ( 'NONE', *, *, #333, .F. ) ;
#139 = FACE_OUTER_BOUND ( 'NONE', #325, .T. ) ;
#140 = CALENDAR_DATE ( 2021, 5, 1 ) ;
#141 = ORIENTED_EDGE ( 'NONE', *, *, #225, .F. ) ;
#142 = AXIS2_PLACEMENT_3D ( 'NONE', #49, #120, #147 ) ;
#143 = LINE ( 'NONE', #86, #25 ) ;
#144 = COORDINATED_UNIVERSAL_TIME_OFFSET ( 8, 0, .AHEAD. ) ;
#145 = CARTESIAN_POINT ( 'NONE',  ( -0.5000000000000006661, 10.00000000000000000, 0.000000000000000000 ) ) ;
#146 = CIRCLE ( 'NONE', #135, 10.00000000000000000 ) ;
#147 = DIRECTION ( 'NONE',  ( 0.000000000000000000, 0.000000000000000000, 1.000000000000000000 ) ) ;
#148 = CARTESIAN_POINT ( 'NONE',  ( 2.999999999999999112, 1.224646799147353256E-15, -10.00000000000000000 ) ) ;
#149 = DIRECTION ( 'NONE',  ( -1.000000000000000000, -0.000000000000000000, -0.000000000000000000 ) ) ;
#150 = AXIS2_PLACEMENT_3D ( 'NONE', #123, #169, #46 ) ;
#151 = APPROVAL ( #163, 'UNSPECIFIED' ) ;
#152 = DIRECTION ( 'NONE',  ( 0.000000000000000000, 0.000000000000000000, 1.000000000000000000 ) ) ;
#153 = DIRECTION ( 'NONE',  ( 0.000000000000000000, 0.000000000000000000, 1.000000000000000000 ) ) ;
#154 = DIRECTION ( 'NONE',  ( 0.000000000000000000, 0.000000000000000000, -1.000000000000000000 ) ) ;
#155 = ORIENTED_EDGE ( 'NONE', *, *, #309, .T. ) ;
#156 = PLANE ( 'NONE',  #116 ) ;
#157 = PRODUCT_DEFINITION_SHAPE ( 'NONE', 'NONE',  #19 ) ;
#158 = VERTEX_POINT ( 'NONE', #254 ) ;
#159 =( NAMED_UNIT ( * ) PLANE_ANGLE_UNIT ( ) SI_UNIT ( $, .RADIAN. ) );
#160 = DIRECTION ( 'NONE',  ( -1.000000000000000000, 0.000000000000000000, -0.000000000000000000 ) ) ;
#161 = CIRCLE ( 'NONE', #256, 10.00000000000000000 ) ;
#162 = ORIENTED_EDGE ( 'NONE', *, *, #13, .T. ) ;
#163 = APPROVAL_STATUS ( 'not_yet_approved' ) ;
#164 = EDGE_LOOP ( 'NONE', ( #203, #162, #269, #61 ) ) ;
#165 = CARTESIAN_POINT ( 'NONE',  ( 0.000000000000000000, 0.000000000000000000, 0.000000000000000000 ) ) ;
#166 = DIRECTION ( 'NONE',  ( -1.000000000000000000, -0.000000000000000000, -0.000000000000000000 ) ) ;
#167 = UNCERTAINTY_MEASURE_WITH_UNIT (LENGTH_MEASURE( 1.000000000000000082E-05 ), #240, 'distance_accuracy_value', 'NONE');
#168 = DIRECTION ( 'NONE',  ( 0.000000000000000000, 0.000000000000000000, 1.000000000000000000 ) ) ;
#169 = DIRECTION ( 'NONE',  ( -1.000000000000000000, -0.000000000000000000, -0.000000000000000000 ) ) ;
#170 = ADVANCED_FACE ( 'NONE', ( #101 ), #66, .F. ) ;
#171 = CARTESIAN_POINT ( 'NONE',  ( -1.614212418857619014, 0.000000000000000000, 0.000000000000000000 ) ) ;
#172 = DIRECTION ( 'NONE',  ( 0.000000000000000000, 0.000000000000000000, -1.000000000000000000 ) ) ;
#173 = EDGE_CURVE ( 'NONE', #24, #184, #75, .T. ) ;
#174 = CLOSED_SHELL ( 'NONE', ( #311, #303, #231, #76, #306, #243, #230, #134, #315, #170 ) ) ;
#175 = LINE ( 'NONE', #281, #199 ) ;
#176 = CYLINDRICAL_SURFACE ( 'NONE', #18, 10.00000000000000000 ) ;
#177 = CIRCLE ( 'NONE', #235, 10.00000000000000000 ) ;
#178 = VECTOR ( 'NONE', #166, 1000.000000000000000 ) ;
#179 = CARTESIAN_POINT ( 'NONE',  ( 3.000000000000000000, 1.555301434917138433E-15, -12.69999999999999929 ) ) ;
#180 = APPROVAL_STATUS ( 'not_yet_approved' ) ;
#181 = LOCAL_TIME ( 10, 45, 24.00000000000000000, #144 ) ;
#182 = VERTEX_POINT ( 'NONE', #148 ) ;
#183 = COORDINATED_UNIVERSAL_TIME_OFFSET ( 8, 0, .AHEAD. ) ;
#184 = VERTEX_POINT ( 'NONE', #220 ) ;
#185 = APPROVAL_DATE_TIME ( #244, #151 ) ;
#186 = CARTESIAN_POINT ( 'NONE',  ( -3.000000000000000000, 0.000000000000000000, 10.00000000000000000 ) ) ;
#187 = ORIENTED_EDGE ( 'NONE', *, *, #13, .F. ) ;
#188 = PERSON_AND_ORGANIZATION_ROLE ( 'classification_officer' ) ;
#189 = ORIENTED_EDGE ( 'NONE', *, *, #270, .T. ) ;
#190 = AXIS2_PLACEMENT_3D ( 'NONE', #56, #200, #152 ) ;
#191 = COORDINATED_UNIVERSAL_TIME_OFFSET ( 8, 0, .AHEAD. ) ;
#192 = CARTESIAN_POINT ( 'NONE',  ( -1.614212418857619014, 0.000000000000000000, 12.69999999999999929 ) ) ;
#193 = DIRECTION ( 'NONE',  ( -1.000000000000000000, -0.000000000000000000, -0.000000000000000000 ) ) ;
#194 = CARTESIAN_POINT ( 'NONE',  ( 3.000000000000000000, 0.000000000000000000, 0.000000000000000000 ) ) ;
#195 = FACE_OUTER_BOUND ( 'NONE', #113, .T. ) ;
#196 = PRODUCT_DEFINITION_FORMATION_WITH_SPECIFIED_SOURCE ( 'ANY', '', #242, .NOT_KNOWN. ) ;
#197 = DIRECTION ( 'NONE',  ( 0.000000000000000000, 0.000000000000000000, 1.000000000000000000 ) ) ;
#198 = FACE_OUTER_BOUND ( 'NONE', #164, .T. ) ;
#199 = VECTOR ( 'NONE', #228, 1000.000000000000000 ) ;
#200 = DIRECTION ( 'NONE',  ( -1.000000000000000000, -0.000000000000000000, -0.000000000000000000 ) ) ;
#201 = CALENDAR_DATE ( 2021, 5, 1 ) ;
#202 = CARTESIAN_POINT ( 'NONE',  ( -1.614212418857619014, 0.000000000000000000, 10.00000000000000000 ) ) ;
#203 = ORIENTED_EDGE ( 'NONE', *, *, #266, .F. ) ;
#204 = APPROVAL_ROLE ( '' ) ;
#205 = CIRCLE ( 'NONE', #284, 10.00000000000000000 ) ;
#206 = DIRECTION ( 'NONE',  ( -1.000000000000000000, -0.000000000000000000, -0.000000000000000000 ) ) ;
#207 = ORIENTED_EDGE ( 'NONE', *, *, #16, .F. ) ;
#208 = PERSON_AND_ORGANIZATION ( #238, #286 ) ;
#209 = ORIENTED_EDGE ( 'NONE', *, *, #173, .F. ) ;
#210 = CC_DESIGN_PERSON_AND_ORGANIZATION_ASSIGNMENT ( #131, #137, ( #19 ) ) ;
#211 = ORIENTED_EDGE ( 'NONE', *, *, #73, .T. ) ;
#212 =( NAMED_UNIT ( * ) SI_UNIT ( $, .STERADIAN. ) SOLID_ANGLE_UNIT ( ) );
#213 = CARTESIAN_POINT ( 'NONE',  ( -0.5000000000000006661, 0.000000000000000000, 0.000000000000000000 ) ) ;
#214 = PERSON_AND_ORGANIZATION_ROLE ( 'creator' ) ;
#215 = ORIENTED_EDGE ( 'NONE', *, *, #173, .T. ) ;
#216 = CC_DESIGN_APPROVAL ( #51, ( #19 ) ) ;
#217 = DIRECTION ( 'NONE',  ( -1.000000000000000000, -0.000000000000000000, -0.000000000000000000 ) ) ;
#218 = LINE ( 'NONE', #327, #96 ) ;
#219 = PERSON_AND_ORGANIZATION ( #238, #286 ) ;
#220 = CARTESIAN_POINT ( 'NONE',  ( -3.000000000000000000, 1.555301434917138433E-15, -12.69999999999999929 ) ) ;
#221 = AXIS2_PLACEMENT_3D ( 'NONE', #252, #331, #99 ) ;
#222 = AXIS2_PLACEMENT_3D ( 'NONE', #93, #193, #168 ) ;
#223 = DIRECTION ( 'NONE',  ( 0.000000000000000000, 0.000000000000000000, 1.000000000000000000 ) ) ;
#224 = APPROVAL_ROLE ( '' ) ;
#225 = EDGE_CURVE ( 'NONE', #128, #110, #161, .T. ) ;
#226 = DIRECTION ( 'NONE',  ( 0.000000000000000000, 0.000000000000000000, 1.000000000000000000 ) ) ;
#227 =( GEOMETRIC_REPRESENTATION_CONTEXT ( 3 ) GLOBAL_UNCERTAINTY_ASSIGNED_CONTEXT ( ( #167 ) ) GLOBAL_UNIT_ASSIGNED_CONTEXT ( ( #240, #159, #212 ) ) REPRESENTATION_CONTEXT ( 'NONE', 'WORKASPACE' ) );
#228 = DIRECTION ( 'NONE',  ( -1.000000000000000000, -0.000000000000000000, -0.000000000000000000 ) ) ;
#229 = CC_DESIGN_DATE_AND_TIME_ASSIGNMENT ( #320, #104, ( #19 ) ) ;
#230 = ADVANCED_FACE ( 'NONE', ( #97, #17 ), #304, .F. ) ;
#231 = ADVANCED_FACE ( 'NONE', ( #198 ), #176, .F. ) ;
#232 = DIRECTION ( 'NONE',  ( -1.000000000000000000, -0.000000000000000000, -0.000000000000000000 ) ) ;
#233 = LINE ( 'NONE', #202, #48 ) ;
#234 = CARTESIAN_POINT ( 'NONE',  ( -3.000000000000000000, 1.224646799147353256E-15, -10.00000000000000000 ) ) ;
#235 = AXIS2_PLACEMENT_3D ( 'NONE', #69, #149, #253 ) ;
#236 = ORIENTED_EDGE ( 'NONE', *, *, #2, .T. ) ;
#237 = APPLICATION_PROTOCOL_DEFINITION ( 'international standard', 'config_control_design', 1994, #255 ) ;
#238 = PERSON ( 'UNSPECIFIED', 'UNSPECIFIED', 'UNSPECIFIED', ('UNSPECIFIED'), ('UNSPECIFIED'), ('UNSPECIFIED') ) ;
#239 = EDGE_CURVE ( 'NONE', #184, #24, #132, .T. ) ;
#240 =( LENGTH_UNIT ( ) NAMED_UNIT ( * ) SI_UNIT ( .MILLI., .METRE. ) );
#241 = ORIENTED_EDGE ( 'NONE', *, *, #296, .F. ) ;
#242 = PRODUCT ( 'QM-CAQWP-20-650-1100-M', 'QM-CAQWP-20-650-1100-M', '', ( #88 ) ) ;
#243 = ADVANCED_FACE ( 'NONE', ( #195 ), #330, .F. ) ;
#244 = DATE_AND_TIME ( #9, #80 ) ;
#245 = ORIENTED_EDGE ( 'NONE', *, *, #42, .T. ) ;
#246 = VECTOR ( 'NONE', #10, 1000.000000000000000 ) ;
#247 = CC_DESIGN_APPROVAL ( #151, ( #196 ) ) ;
#248 = FACE_OUTER_BOUND ( 'NONE', #319, .T. ) ;
#249 = DIRECTION ( 'NONE',  ( 0.000000000000000000, 0.000000000000000000, 1.000000000000000000 ) ) ;
#250 = DIRECTION ( 'NONE',  ( -1.000000000000000000, -0.000000000000000000, -0.000000000000000000 ) ) ;
#251 = AXIS2_PLACEMENT_3D ( 'NONE', #4, #53, #153 ) ;
#252 = CARTESIAN_POINT ( 'NONE',  ( -1.614212418857619014, 0.000000000000000000, 0.000000000000000000 ) ) ;
#253 = DIRECTION ( 'NONE',  ( 0.000000000000000000, 0.000000000000000000, 1.000000000000000000 ) ) ;
#254 = CARTESIAN_POINT ( 'NONE',  ( -0.5000000000000006661, 1.224646799147353256E-15, -10.00000000000000000 ) ) ;
#255 = APPLICATION_CONTEXT ( 'configuration controlled 3d designs of mechanical parts and assemblies' ) ;
#256 = AXIS2_PLACEMENT_3D ( 'NONE', #71, #21, #223 ) ;
#257 = AXIS2_PLACEMENT_3D ( 'NONE', #108, #312, #154 ) ;
#258 = DIRECTION ( 'NONE',  ( 0.000000000000000000, 0.000000000000000000, 1.000000000000000000 ) ) ;
#259 = FACE_BOUND ( 'NONE', #63, .T. ) ;
#260 = CC_DESIGN_PERSON_AND_ORGANIZATION_ASSIGNMENT ( #208, #106, ( #242 ) ) ;
#261 = ORIENTED_EDGE ( 'NONE', *, *, #282, .F. ) ;
#262 = ORIENTED_EDGE ( 'NONE', *, *, #239, .T. ) ;
#263 = VERTEX_POINT ( 'NONE', #20 ) ;
#264 = DIRECTION ( 'NONE',  ( -0.000000000000000000, 0.000000000000000000, 1.000000000000000000 ) ) ;
#265 = AXIS2_PLACEMENT_3D ( 'NONE', #307, #22, #197 ) ;
#266 = EDGE_CURVE ( 'NONE', #182, #263, #107, .T. ) ;
#267 = ORIENTED_EDGE ( 'NONE', *, *, #270, .F. ) ;
#268 = PERSON_AND_ORGANIZATION ( #238, #286 ) ;
#269 = ORIENTED_EDGE ( 'NONE', *, *, #225, .T. ) ;
#270 = EDGE_CURVE ( 'NONE', #8, #57, #177, .T. ) ;
#271 = APPROVAL_DATE_TIME ( #82, #51 ) ;
#272 = CARTESIAN_POINT ( 'NONE',  ( -1.614212418857619014, 1.224646799147353256E-15, -10.00000000000000000 ) ) ;
#273 = APPLICATION_CONTEXT ( 'configuration controlled 3d designs of mechanical parts and assemblies' ) ;
#274 = ORIENTED_EDGE ( 'NONE', *, *, #111, .T. ) ;
#275 = CC_DESIGN_SECURITY_CLASSIFICATION ( #100, ( #196 ) ) ;
#276 = DIRECTION ( 'NONE',  ( -1.000000000000000000, -0.000000000000000000, -0.000000000000000000 ) ) ;
#277 = DATE_TIME_ROLE ( 'classification_date' ) ;
#278 = CC_DESIGN_PERSON_AND_ORGANIZATION_ASSIGNMENT ( #268, #214, ( #196 ) ) ;
#279 = DIRECTION ( 'NONE',  ( 0.000000000000000000, 0.000000000000000000, -1.000000000000000000 ) ) ;
#280 = SHAPE_DEFINITION_REPRESENTATION ( #157, #39 ) ;
#281 = CARTESIAN_POINT ( 'NONE',  ( -1.614212418857619014, 1.224646799147353256E-15, -10.00000000000000000 ) ) ;
#282 = EDGE_CURVE ( 'NONE', #158, #8, #175, .T. ) ;
#283 = DIRECTION ( 'NONE',  ( 1.000000000000000000, 0.000000000000000000, 0.000000000000000000 ) ) ;
#284 = AXIS2_PLACEMENT_3D ( 'NONE', #213, #14, #118 ) ;
#285 = AXIS2_PLACEMENT_3D ( 'NONE', #194, #60, #301 ) ;
#286 = ORGANIZATION ( 'UNSPECIFIED', 'UNSPECIFIED', '' ) ;
#287 = CARTESIAN_POINT ( 'NONE',  ( -1.614212418857619014, 0.000000000000000000, 0.000000000000000000 ) ) ;
#288 = LOCAL_TIME ( 10, 45, 24.00000000000000000, #191 ) ;
#289 = PRODUCT_RELATED_PRODUCT_CATEGORY ( 'detail', '', ( #242 ) ) ;
#290 = FACE_OUTER_BOUND ( 'NONE', #64, .T. ) ;
#291 = ORIENTED_EDGE ( 'NONE', *, *, #266, .T. ) ;
#292 = DIRECTION ( 'NONE',  ( 1.000000000000000000, 0.000000000000000000, 0.000000000000000000 ) ) ;
#293 = PERSON_AND_ORGANIZATION ( #238, #286 ) ;
#294 = CARTESIAN_POINT ( 'NONE',  ( 0.5000000000000006661, 10.00000000000000000, 0.000000000000000000 ) ) ;
#295 = ORIENTED_EDGE ( 'NONE', *, *, #328, .T. ) ;
#296 = EDGE_CURVE ( 'NONE', #57, #8, #102, .T. ) ;
#297 = DIRECTION ( 'NONE',  ( -1.000000000000000000, -0.000000000000000000, -0.000000000000000000 ) ) ;
#298 = AXIS2_PLACEMENT_3D ( 'NONE', #171, #15, #98 ) ;
#299 = COORDINATED_UNIVERSAL_TIME_OFFSET ( 8, 0, .AHEAD. ) ;
#300 = CARTESIAN_POINT ( 'NONE',  ( -3.000000000000000000, 0.000000000000000000, 12.69999999999999929 ) ) ;
#301 = DIRECTION ( 'NONE',  ( 0.000000000000000000, 0.000000000000000000, 1.000000000000000000 ) ) ;
#302 = AXIS2_PLACEMENT_3D ( 'NONE', #29, #232, #27 ) ;
#303 = ADVANCED_FACE ( 'NONE', ( #290 ), #3, .F. ) ;
#304 = PLANE ( 'NONE',  #52 ) ;
#305 = CALENDAR_DATE ( 2021, 5, 1 ) ;
#306 = ADVANCED_FACE ( 'NONE', ( #26 ), #127, .F. ) ;
#307 = CARTESIAN_POINT ( 'NONE',  ( 2.999999999999999112, 0.000000000000000000, 0.000000000000000000 ) ) ;
#308 = CIRCLE ( 'NONE', #251, 12.69999999999999929 ) ;
#309 = EDGE_CURVE ( 'NONE', #30, #158, #335, .T. ) ;
#310 = AXIS2_PLACEMENT_3D ( 'NONE', #287, #206, #258 ) ;
#311 = ADVANCED_FACE ( 'NONE', ( #125 ), #77, .T. ) ;
#312 = DIRECTION ( 'NONE',  ( 1.000000000000000000, 0.000000000000000000, 0.000000000000000000 ) ) ;
#313 = EDGE_LOOP ( 'NONE', ( #241, #267 ) ) ;
#314 = DATE_AND_TIME ( #201, #288 ) ;
#315 = ADVANCED_FACE ( 'NONE', ( #105, #259 ), #81, .F. ) ;
#316 = DIRECTION ( 'NONE',  ( -1.000000000000000000, -0.000000000000000000, -0.000000000000000000 ) ) ;
#317 = ORIENTED_EDGE ( 'NONE', *, *, #333, .T. ) ;
#318 = CALENDAR_DATE ( 2021, 5, 1 ) ;
#319 = EDGE_LOOP ( 'NONE', ( #54, #141 ) ) ;
#320 = DATE_AND_TIME ( #140, #90 ) ;
#321 = LINE ( 'NONE', #272, #246 ) ;
#322 = VERTEX_POINT ( 'NONE', #179 ) ;
#323 = PERSON_AND_ORGANIZATION ( #238, #286 ) ;
#324 = CARTESIAN_POINT ( 'NONE',  ( 2.999999999999999112, 0.000000000000000000, 0.000000000000000000 ) ) ;
#325 = EDGE_LOOP ( 'NONE', ( #207, #295, #236, #7 ) ) ;
#326 = EDGE_LOOP ( 'NONE', ( #245, #58, #209, #109 ) ) ;
#327 = CARTESIAN_POINT ( 'NONE',  ( -1.614212418857619014, 0.000000000000000000, 10.00000000000000000 ) ) ;
#328 = EDGE_CURVE ( 'NONE', #322, #32, #308, .T. ) ;
#329 = AXIS2_PLACEMENT_3D ( 'NONE', #145, #124, #279 ) ;
#330 = CYLINDRICAL_SURFACE ( 'NONE', #221, 10.00000000000000000 ) ;
#331 = DIRECTION ( 'NONE',  ( -1.000000000000000000, -0.000000000000000000, -0.000000000000000000 ) ) ;
#332 = APPROVAL_PERSON_ORGANIZATION ( #219, #114, #224 ) ;
#333 = EDGE_CURVE ( 'NONE', #30, #57, #233, .T. ) ;
#334 = DESIGN_CONTEXT ( 'detailed design', #273, 'design' ) ;
#335 = CIRCLE ( 'NONE', #257, 10.00000000000000000 ) ;
ENDSEC;
END-ISO-10303-21;
